Just an Excitable Board

Better Than PornĀ®
It is currently Sun Sep 21, 2014 9:05 am
View unanswered posts | View active topics


All times are UTC - 8 hours [ DST ]



Welcome
Welcome to the Warren Zevon Bulletin Board

You are currently viewing our boards as a guest, which gives you limited access to view most discussions and access our other features. By joining our free community, you will have access to post topics, communicate privately with other members (PM), respond to polls, upload content, and access many other special features. In addition, registered members also see less advertisements. Registration is fast, simple, and absolutely free, so please, join our community today!


Post new topic Reply to topic  [ 1 post ] 
Author Message
 Post subject: I'll Slow You Down (TAB)
PostPosted: Sat Apr 04, 2009 4:54 pm 
Offline
El Admin De Mi Vida
User avatar

Joined: Mon Feb 23, 2009 5:13 pm
Posts: 4163
Location: In front of the computer
bhelm:
o.k. folks! my fist tab!! as said in the other post, guitar tuned a quater tone sharper than written.

12 STRING GUITAR!!!!!! the intro is all i know. here we go!!!!


---------------------------------------------------
---------------------------------------------------
---------------------------------------------------
-------1 1----0 0 1 0---------0------------------
--1 1-------------------3 3----------3-----------
---------------------------------------------------



---------------------------------------------------
---------------------------------------------------
---------------------------------------------------
--------1 1----0 0 1 0--------------------------
-1 1-------------------------3 3-----------------
---------------------------------------------------


---------------------------------------------------
---------------------------------------------------
---------------------------------------------------
-------1 1----0 0 1 0---------0------------------
--1 1-------------------3 3----------3-----------
---------------------------------------------------


---------------------------------------------------
---------------------------------------------------
---------------------------------------------------
------------1 1-----------------------------------
----1 1-----------------------1 1-----------------
---------------------------------------1 1 1--------

_________________
KWZIYH
Four of Hearts


Top
 Profile  
 
Display posts from previous:  Sort by  
Post new topic Reply to topic  [ 1 post ] 

All times are UTC - 8 hours [ DST ]


Who is online

Users browsing this forum: No registered users


You cannot post new topics in this forum
You cannot reply to topics in this forum
You cannot edit your posts in this forum
You cannot delete your posts in this forum

Search for:
Jump to:  
suspicion-preferred